  0
SECTION
  2
HEADER
  9
$EXTMAX
  10
1101.538864412037
  20
347.012421484244
  9
$EXTMIN
  10
20.025000000000
  20
6.025000000000
  0
ENDSEC
  0
SECTION
  2
TABLES
  0
TABLE
  2
LAYER
  70
7
  0
LAYER
2
  0
  70
64
  62
7
  6
CONTINUOUS
  0
ENDTAB
  0
ENDSEC
  0
SECTION
  2
ENTITIES
  0
ARC
100
AcDbCircle
  8
0
  6
Continuous
  62
1
  10
892.313236576577
  20
18.115764665005
  40
14.427121842981
  50
188.913296390028
  51
202.466444362649
  0
ARC
100
AcDbCircle
  8
0
  6
Continuous
  62
1
  10
923.093301404678
  20
23.178517192821
  40
45.620498542465
  50
177.348729078978
  51
189.205377114543
  0
ARC
100
AcDbCircle
  8
0
  6
Continuous
  62
1
  10
937.645944211850
  20
21.910221892841
  40
60.219158744787
  50
166.284672660970
  51
176.783767638048
  0
ARC
100
AcDbCircle
  8
0
  6
Continuous
  62
1
  10
951.503749196436
  20
17.870305219834
  40
74.642410601565
  50
159.694174209792
  51
165.794119637743
  0
ARC
100
AcDbCircle
  8
0
  6
Continuous
  62
1
  10
785.669024648705
  20
79.523755957857
  40
102.282313202812
  50
339.541738950650
  51
342.812416223547
  0
ARC
100
AcDbCircle
  8
0
  6
Continuous
  62
1
  10
857.068664563530
  20
57.253000475089
  40
27.490750402599
  50
343.182424558861
  51
357.333585886564
  0
ARC
100
AcDbCircle
  8
0
  6
Continuous
  62
1
  10
860.290642420920
  20
57.127106708989
  40
24.266416234369
  50
357.276607762532
  51
25.002607081969
  0
ARC
100
AcDbCircle
  8
0
  6
Continuous
  62
1
  10
858.845678256381
  20
56.028309936134
  40
26.043234985111
  50
25.849865796562
  51
45.772494902023
  0
ARC
100
AcDbCircle
  8
0
  6
Continuous
  62
1
  10
851.333410511565
  20
48.245770197331
  40
36.859918517019
  50
45.842884126791
  51
63.492064058816
  0
ARC
100
AcDbCircle
  8
0
  6
Continuous
  62
1
  10
841.716586675146
  20
28.836209241383
  40
58.521227462021
  50
63.547946664134
  51
77.552375380217
  0
ARC
100
AcDbCircle
  8
0
  6
Continuous
  62
1
  10
836.626924747433
  20
2.514707349689
  40
85.323963659336
  50
78.024787769049
  51
86.563746405485
  0
ARC
100
AcDbCircle
  8
0
  6
Continuous
  62
1
  10
837.275346621984
  20
10.559839227551
  40
77.254607303774
  50
86.686153410400
  51
101.543362465087
  0
ARC
100
AcDbCircle
  8
0
  6
Continuous
  62
1
  10
832.152398801247
  20
33.533773366349
  40
53.721861711291
  50
101.093255782038
  51
120.211513322150
  0
ARC
100
AcDbCircle
  8
0
  6
Continuous
  62
1
  10
824.349992516811
  20
47.281144671071
  40
37.916027591586
  50
120.475892818150
  51
139.585790637805
  0
ARC
100
AcDbCircle
  8
0
  6
Continuous
  62
1
  10
816.285811140245
  20
54.220060292330
  40
27.277636827538
  50
139.701432538625
  51
167.652092015007
  0
ARC
100
AcDbCircle
  8
0
  6
Continuous
  62
1
  10
820.593809879850
  20
53.504907222695
  40
31.639695994038
  50
168.055277992998
  51
188.479373109278
  0
ARC
100
AcDbCircle
  8
0
  6
Continuous
  62
1
  10
837.661139917839
  20
56.140928436493
  40
48.909237265033
  50
188.585475606090
  51
203.268774543817
  0
ARC
100
AcDbCircle
  8
0
  6
Continuous
  62
1
  10
839.752256364032
  20
58.082170008715
  40
51.606022725278
  50
204.331636556898
  51
211.172019236178
  0
ARC
100
AcDbCircle
  8
0
  6
Continuous
  62
1
  10
736.140925270994
  20
-4.469387225130
  40
69.422958255577
  50
25.689048341801
  51
31.081237663200
  0
ARC
100
AcDbCircle
  8
0
  6
Continuous
  62
1
  10
764.691326007003
  20
9.366836524724
  40
37.696774473096
  50
17.062969964683
  51
25.548567477486
  0
ARC
100
AcDbCircle
  8
0
  6
Continuous
  62
1
  10
789.710129482765
  20
17.033197204275
  40
11.529750777909
  50
356.446104900324
  51
17.123454757055
  0
ARC
100
AcDbCircle
  8
0
  6
Continuous
  62
1
  10
791.122836584026
  20
16.873135612486
  40
10.110096296990
  50
321.751619973017
  51
356.855186911689
  0
ARC
100
AcDbCircle
  8
0
  6
Continuous
  62
1
  10
790.724102054712
  20
17.011519071059
  40
10.509813799057
  50
272.593781522101
  51
322.504884554937
  0
ARC
100
AcDbCircle
  8
0
  6
Continuous
  62
1
  10
791.197456395695
  20
6.562421484243
  40
0.050000000000
  50
270.000000000000
  51
272.593781522245
  0
LINE
100
AcDbLine
  8
0
  6
Continuous
  62
1
  10
791.197456395695
  20
6.512421484243
  11
681.478470345860
  21
6.512421484243
  0
ARC
100
AcDbCircle
  8
0
  6
Continuous
  62
1
  10
681.478470345860
  20
6.637421484243
  40
0.125000000000
  50
180.000000000184
  51
270.000000000000
  0
LINE
100
AcDbLine
  8
0
  6
Continuous
  62
1
  10
681.353470345860
  20
6.637421484243
  11
681.353470345859
  21
140.568669958672
  0
ARC
100
AcDbCircle
  8
0
  6
Continuous
  62
1
  10
681.328470345859
  20
140.568669958670
  40
0.025000000000
  50
359.999999999479
  51
3.531874772410
  0
ARC
100
AcDbCircle
  8
0
  6
Continuous
  62
1
  10
670.856970720346
  20
139.922358110869
  40
10.516426185783
  50
3.531874772398
  51
62.041537855297
  0
ARC
100
AcDbCircle
  8
0
  6
Continuous
  62
1
  10
670.031879826030
  20
137.722118114034
  40
12.850266437761
  50
63.391535765390
  51
81.254491104952
  0
ARC
100
AcDbCircle
  8
0
  6
Continuous
  62
1
  10
663.541958009811
  20
97.710160684158
  40
53.384813183140
  50
80.899441920036
  51
93.623679754023
  0
ARC
100
AcDbCircle
  8
0
  6
Continuous
  62
1
  10
663.441178588873
  20
102.705427087945
  40
48.393642500913
  50
93.878393591664
  51
109.839245672269
  0
ARC
100
AcDbCircle
  8
0
  6
Continuous
  62
1
  10
630.500724281861
  20
194.155098643731
  40
48.807790295536
  50
279.351496192927
  51
289.779363218999
  0
ARC
100
AcDbCircle
  8
0
  6
Continuous
  62
1
  10
632.736208847566
  20
180.232347174003
  40
34.706871754118
  50
263.550236801488
  51
279.444839776605
  0
ARC
100
AcDbCircle
  8
0
  6
Continuous
  62
1
  10
631.869374346302
  20
172.385810818393
  40
26.812632495112
  50
229.632193816244
  51
263.507351194916
  0
ARC
100
AcDbCircle
  8
0
  6
Continuous
  62
1
  10
635.218195186398
  20
176.021627036245
  40
31.752382134341
  50
210.289169930533
  51
229.277461135684
  0
ARC
100
AcDbCircle
  8
0
  6
Continuous
  62
1
  10
644.724484595422
  20
181.483164495000
  40
42.715654090935
  50
193.693380522884
  51
210.183679381215
  0
ARC
100
AcDbCircle
  8
0
  6
Continuous
  62
1
  10
656.119481014389
  20
184.304221968275
  40
54.454599203059
  50
173.798285447904
  51
193.739026305884
  0
ARC
100
AcDbCircle
  8
0
  6
Continuous
  62
1
  10
653.177463529084
  20
184.934247317759
  40
51.462662888257
  50
157.160389274983
  51
174.141771352179
  0
ARC
100
AcDbCircle
  8
0
  6
Continuous
  62
1
  10
641.963928810732
  20
189.677903635123
  40
39.287066187990
  50
139.038011571250
  51
157.188339329712
  0
ARC
100
AcDbCircle
  8
0
  6
Continuous
  62
1
  10
635.333540712627
  20
195.354867020282
  40
30.558642441712
  50
115.617572568526
  51
138.926121096774
  0
ARC
100
AcDbCircle
  8
0
  6
Continuous
  62
1
  10
635.114284019012
  20
195.069796906011
  40
30.722568380045
  50
91.536840374706
  51
115.018995176781
  0
ARC
100
AcDbCircle
  8
0
  6
Continuous
  62
1
  10
635.369498252948
  20
184.031759326896
  40
41.763500245447
  50
76.242038953400
  51
91.480709312908
  0
ARC
100
AcDbCircle
  8
0
  6
Continuous
  62
1
  10
630.638722390693
  20
164.745034598290
  40
61.621947938450
  50
64.674967428045
  51
76.234358865629
  0
ARC
100
AcDbCircle
  8
0
  6
Continuous
  62
1
  10
675.360459538788
  20
258.369980286538
  40
42.136764393230
  50
244.164434431919
  51
249.600198722432
  0
ARC
100
AcDbCircle
  8
0
  6
Continuous
  62
1
  10
671.324221168487
  20
247.349091146567
  40
30.400219589760
  50
249.490056504581
  51
263.204234097470
  0
ARC
100
AcDbCircle
  8
0
  6
Continuous
  62
1
  10
669.869985421540
  20
235.863163266816
  40
18.823099721505
  50
263.462608098698
  51
278.898794221255
  0
ARC
100
AcDbCircle
  8
0
  6
Continuous
  62
1
  10
671.220079469197
  20
227.012399641744
  40
9.870089208246
  50
279.103582607137
  51
310.221710799854
  0
ARC
100
AcDbCircle
  8
0
  6
Continuous
  62
1
  10
670.840418904700
  20
227.554635012901
  40
10.529450891512
  50
309.893824322272
  51
356.797994197136
  0
ARC
100
AcDbCircle
  8
0
  6
Continuous
  62
1
  10
681.328470345758
  20
226.967893587942
  40
0.025000000102
  50
356.797999784004
  51
0.000000011464
  0
LINE
100
AcDbLine
  8
0
  6
Continuous
  62
1
  10
681.353470345861
  20
226.967893587947
  11
681.353470345860
  21
346.887421484243
  0
ARC
100
AcDbCircle
  8
0
  6
Continuous
  62
1
  10
681.478470345860
  20
346.887421484243
  40
0.125000000000
  50
90.000000000000
  51
180.000000000026
  0
LINE
100
AcDbLine
  8
0
  6
Continuous
  62
1
  10
681.478470345860
  20
347.012421484243
  11
801.395741978592
  21
347.012421484244
  0
ARC
100
AcDbCircle
  8
0
  6
Continuous
  62
1
  10
801.395741978595
  20
346.962421484244
  40
0.050000000000
  50
86.548292757931
  51
90.000000000000
  0
ARC
100
AcDbCircle
  8
0
  6
Continuous
  62
1
  10
800.680159605403
  20
335.098658207665
  40
11.935324447214
  50
79.571875855374
  51
86.548292755681
  0
ARC
100
AcDbCircle
  8
0
  6
Continuous
  62
1
  10
800.729093388648
  20
336.438231021598
  40
10.610800435093
  50
33.643310209835
  51
78.522429274387
  0
ARC
100
AcDbCircle
  8
0
  6
Continuous
  62
1
  10
801.009920009014
  20
336.774095496876
  40
10.191690208005
  50
6.310939251119
  51
32.946051911498
  0
ARC
100
AcDbCircle
  8
0
  6
Continuous
  62
1
  10
790.811810774275
  20
335.584158195697
  40
20.458894588951
  50
350.247686277893
  51
6.483756025759
  0
ARC
100
AcDbCircle
  8
0
  6
Continuous
  62
1
  10
777.949036665162
  20
337.886432891171
  40
33.525893587995
  50
335.413101631886
  51
350.093553539012
  0
ARC
100
AcDbCircle
  8
0
  6
Continuous
  62
1
  10
892.027941678264
  20
284.165789211659
  40
92.571682104410
  50
154.556016603180
  51
157.212523634069
  0
ARC
100
AcDbCircle
  8
0
  6
Continuous
  62
1
  10
858.655717080397
  20
297.979925158991
  40
56.454141109314
  50
157.020076657313
  51
169.051494182619
  0
ARC
100
AcDbCircle
  8
0
  6
Continuous
  62
1
  10
841.211974502658
  20
301.333956979016
  40
38.690889773278
  50
169.021803543431
  51
185.493664722807
  0
ARC
100
AcDbCircle
  8
0
  6
Continuous
  62
1
  10
832.177447196076
  20
300.497723653521
  40
29.617820442127
  50
185.556602592549
  51
215.982134471298
  0
ARC
100
AcDbCircle
  8
0
  6
Continuous
  62
1
  10
835.157937182572
  20
303.011503414242
  40
33.507757335080
  50
216.466074983022
  51
236.997421452227
  0
ARC
100
AcDbCircle
  8
0
  6
Continuous
  62
1
  10
840.856215605626
  20
311.725697184086
  40
43.919613469860
  50
236.955127946723
  51
253.400838400785
  0
ARC
100
AcDbCircle
  8
0
  6
Continuous
  62
1
  10
844.088432260767
  20
322.411174293179
  40
55.083171788092
  50
253.354079669932
  51
279.866225935438
  0
ARC
100
AcDbCircle
  8
0
  6
Continuous
  62
1
  10
845.804390462014
  20
313.410462600709
  40
45.921788982163
  50
279.681166109727
  51
296.146633703082
  0
ARC
100
AcDbCircle
  8
0
  6
Continuous
  62
1
  10
851.088302562027
  20
302.568506031882
  40
33.860854801062
  50
296.205043404942
  51
314.539354089479
  0
ARC
100
AcDbCircle
  8
0
  6
Continuous
  62
1
  10
855.960019033587
  20
297.556027177788
  40
26.871133869635
  50
314.631765288175
  51
349.762267039000
  0
ARC
100
AcDbCircle
  8
0
  6
Continuous
  62
1
  10
849.878722524418
  20
298.462599345676
  40
33.017275615177
  50
350.089738587867
  51
7.339558573444
  0
ARC
100
AcDbCircle
  8
0
  6
Continuous
  62
1
  10
835.405568113192
  20
296.562441481916
  40
47.614601299329
  50
7.382459415038
  51
20.043715312689
  0
ARC
100
AcDbCircle
  8
0
  6
Continuous
  62
1
  10
924.326458613882
  20
328.795313980045
  40
46.968281639233
  50
188.976032507017
  51
199.804730508956
  0
ARC
100
AcDbCircle
  8
0
  6
Continuous
  62
1
  10
927.285241326743
  20
329.319586747238
  40
49.972659525995
  50
173.594772138026
  51
189.040490300768
  0
ARC
100
AcDbCircle
  8
0
  6
Continuous
  62
1
  10
909.465955706878
  20
332.025432226272
  40
31.970430484070
  50
167.685822868326
  51
174.851245391309
  0
ARC
100
AcDbCircle
  8
0
  6
Continuous
  62
1
  10
888.439322671831
  20
336.574702023198
  40
10.457403920713
  50
93.524492985566
  51
167.467808801621
  0
ARC
100
AcDbCircle
  8
0
  6
Continuous
  62
1
  10
887.799525229257
  20
346.962421484242
  40
0.050000000000
  50
90.000000000000
  51
93.524494648152
  0
LINE
100
AcDbLine
  8
0
  6
Continuous
  62
1
  10
887.799525229256
  20
347.012421484242
  11
1021.728470345860
  21
347.012421484243
  0
ARC
100
AcDbCircle
  8
0
  6
Continuous
  62
1
  10
1021.728470345860
  20
346.887421484243
  40
0.125000000000
  50
0.000000000052
  51
90.000000000000
  0
LINE
100
AcDbLine
  8
0
  6
Continuous
  62
1
  10
1021.853470345860
  20
346.887421484243
  11
1021.853470345861
  21
212.956173009815
  0
ARC
100
AcDbCircle
  8
0
  6
Continuous
  62
1
  10
1021.878470345839
  20
212.956173009816
  40
0.024999999977
  50
180.000000002280
  51
183.512386600646
  0
ARC
100
AcDbCircle
  8
0
  6
Continuous
  62
1
  10
1032.342398435794
  20
213.598444925805
  40
10.508620762187
  50
183.512386598344
  51
242.881836027544
  0
ARC
100
AcDbCircle
  8
0
  6
Continuous
  62
1
  10
1033.287958965618
  20
216.160739672784
  40
13.224277774404
  50
244.295929878858
  51
261.651218759653
  0
ARC
100
AcDbCircle
  8
0
  6
Continuous
  62
1
  10
1039.984634000497
  20
259.276075600912
  40
56.856222380121
  50
261.282971411745
  51
268.901188406732
  0
ARC
100
AcDbCircle
  8
0
  6
Continuous
  62
1
  10
1039.712727972091
  20
251.121378081324
  40
48.697947077652
  50
269.037052086737
  51
288.906142502783
  0
ARC
100
AcDbCircle
  8
0
  6
Continuous
  62
1
  10
1073.229483823913
  20
157.326997684952
  40
50.913392739865
  50
100.225531609631
  51
110.388855664912
  0
ARC
100
AcDbCircle
  8
0
  6
Continuous
  62
1
  10
1070.482899863847
  20
172.765376801888
  40
35.232665143915
  50
84.148206027307
  51
100.286860948013
  0
ARC
100
AcDbCircle
  8
0
  6
Continuous
  62
1
  10
1071.280624109426
  20
180.998842107921
  40
26.960811419720
  50
55.402510986487
  51
84.050702679150
  0
ARC
100
AcDbCircle
  8
0
  6
Continuous
  62
1
  10
1069.321502797402
  20
178.679728023490
  40
29.983680119862
  50
33.595528890798
  51
54.837139480688
  0
ARC
100
AcDbCircle
  8
0
  6
Continuous
  62
1
  10
1060.784838020224
  20
173.042115228053
  40
40.213868497554
  50
16.881602430323
  51
33.556158912578
  0
ARC
100
AcDbCircle
  8
0
  6
Continuous
  62
1
  10
1048.987498354944
  20
169.431398297639
  40
52.551366057093
  50
359.477543271509
  51
16.913473576937
  0
ARC
100
AcDbCircle
  8
0
  6
Continuous
  62
1
  10
1047.724052681975
  20
169.095128882257
  40
53.812816741217
  50
340.614656363027
  51
359.847831313333
  0
ARC
100
AcDbCircle
  8
0
  6
Continuous
  62
1
  10
1059.077986729371
  20
165.084314813612
  40
41.771298385443
  50
323.360687916807
  51
340.635005355015
  0
ARC
100
AcDbCircle
  8
0
  6
Continuous
  62
1
  10
1067.102464814104
  20
159.115413777565
  40
31.770297060689
  50
300.410598139421
  51
323.361919083704
  0
ARC
100
AcDbCircle
  8
0
  6
Continuous
  62
1
  10
1068.278854834101
  20
157.753445638872
  40
30.001989371533
  50
274.046490413689
  51
299.789687586316
  0
ARC
100
AcDbCircle
  8
0
  6
Continuous
  62
1
  10
1067.654282245064
  20
167.422061640988
  40
39.690620435887
  50
258.139695446284
  51
273.960946710655
  0
ARC
100
AcDbCircle
  8
0
  6
Continuous
  62
1
  10
1071.464989612986
  20
185.556993195570
  40
58.221600711593
  50
246.191503584267
  51
258.137578479434
  0
ARC
100
AcDbCircle
  8
0
  6
Continuous
  62
1
  10
1464.216614123265
  20
1056.284851851799
  40
1013.426980839278
  50
245.522795300256
  51
245.748697197459
  0
ARC
100
AcDbCircle
  8
0
  6
Continuous
  62
1
  10
1031.248655632344
  20
103.799499660865
  40
32.852283192919
  50
66.549920967115
  51
81.041506482893
  0
ARC
100
AcDbCircle
  8
0
  6
Continuous
  62
1
  10
1033.346973760247
  20
116.604708453798
  40
19.876687945410
  50
81.268388717143
  51
97.593542772852
  0
ARC
100
AcDbCircle
  8
0
  6
Continuous
  62
1
  10
1032.039147263903
  20
126.416621079696
  40
9.977999172995
  50
97.594889995045
  51
132.680776088228
  0
ARC
100
AcDbCircle
  8
0
  6
Continuous
  62
1
  10
1032.334755969428
  20
125.983617484410
  40
10.496992098200
  50
132.264716512475
  51
176.861539772958
  0
ARC
100
AcDbCircle
  8
0
  6
Continuous
  62
1
  10
1021.878470345855
  20
126.556949380539
  40
0.024999999996
  50
176.861549210484
  51
179.999999999935
  0
LINE
100
AcDbLine
  8
0
  6
Continuous
  62
1
  10
1021.853470345859
  20
126.556949380539
  11
1021.853470345860
  21
6.637421484243
  0
ARC
100
AcDbCircle
  8
0
  6
Continuous
  62
1
  10
1021.728470345860
  20
6.637421484242
  40
0.125000000000
  50
270.000000000000
  51
0.000000000021
  0
LINE
100
AcDbLine
  8
0
  6
Continuous
  62
1
  10
1021.728470345860
  20
6.512421484243
  11
888.465984610993
  21
6.512421484243
  0
ARC
100
AcDbCircle
  8
0
  6
Continuous
  62
1
  10
888.465984610993
  20
6.562421484243
  40
0.050000000000
  50
266.156786959474
  51
270.000000000000
  0
ARC
100
AcDbCircle
  8
0
  6
Continuous
  62
1
  10
890.106610785197
  20
30.984677855200
  40
24.527300923350
  50
262.831254294183
  51
266.156786959758
  0
ARC
100
AcDbCircle
  8
0
  6
Continuous
  62
1
  10
888.140175749056
  20
16.290233379305
  40
9.703037869367
  50
225.218362159481
  51
263.524000974759
  0
ARC
100
AcDbCircle
  8
0
  6
Continuous
  62
1
  10
888.573031987419
  20
17.126675165365
  40
10.605396904390
  50
205.264490444600
  51
226.741809000126
  0
ARC
100
AcDbCircle
  8
0
  6
Continuous
  62
1
  10
879.027288032859
  20
12.621658388128
  40
0.050000000000
  50
202.466444366724
  51
205.264362600678
  0
ARC
100
AcDbCircle
  8
0
  6
Continuous
  62
1
  10
450.783415418091
  20
237.532272215189
  40
10.945910732851
  50
249.183298154738
  51
269.830054168967
  0
ARC
100
AcDbCircle
  8
0
  6
Continuous
  62
1
  10
450.755715654353
  20
238.094032250421
  40
11.507623605328
  50
269.976265332463
  51
284.899427206509
  0
ARC
100
AcDbCircle
  8
0
  6
Continuous
  62
1
  10
446.487582785197
  20
253.659684309415
  40
27.647643809319
  50
285.152966923716
  51
292.126833734019
  0
ARC
100
AcDbCircle
  8
0
  6
Continuous
  62
1
  10
437.748780890464
  20
275.383481052398
  40
51.063148994913
  50
292.028950356040
  51
299.840886015229
  0
ARC
100
AcDbCircle
  8
0
  6
Continuous
  62
1
  10
44.876413160992
  20
957.646730766675
  40
838.357082372735
  50
299.929198117373
  51
300.177840047656
  0
ARC
100
AcDbCircle
  8
0
  6
Continuous
  62
1
  10
489.158140962004
  20
193.539840333766
  40
45.523916275676
  50
114.076038961789
  51
120.130452391035
  0
ARC
100
AcDbCircle
  8
0
  6
Continuous
  62
1
  10
489.249789555651
  20
192.015469943711
  40
46.956146111643
  50
105.768884043146
  51
113.419327290703
  0
ARC
100
AcDbCircle
  8
0
  6
Continuous
  62
1
  10
489.077598971484
  20
193.822931260476
  40
45.171085836349
  50
97.710314365129
  51
106.181733451452
  0
ARC
100
AcDbCircle
  8
0
  6
Continuous
  62
1
  10
487.294692916431
  20
206.660371119234
  40
32.210536294587
  50
82.118677463018
  51
97.631234332167
  0
ARC
100
AcDbCircle
  8
0
  6
Continuous
  62
1
  10
487.933435961045
  20
211.560574601409
  40
27.269061776311
  50
59.914581383756
  51
82.036283042098
  0
ARC
100
AcDbCircle
  8
0
  6
Continuous
  62
1
  10
486.312274197663
  20
209.193544739568
  40
30.130651712657
  50
45.392471733596
  51
59.503480352595
  0
ARC
100
AcDbCircle
  8
0
  6
Continuous
  62
1
  10
480.103873198889
  20
202.842762265298
  40
39.011837151570
  50
29.052544593510
  51
45.450991187421
  0
ARC
100
AcDbCircle
  8
0
  6
Continuous
  62
1
  10
466.030061737397
  20
195.186656618250
  40
55.032882780788
  50
19.925750704585
  51
28.905089997507
  0
ARC
100
AcDbCircle
  8
0
  6
Continuous
  62
1
  10
466.828506347325
  20
195.613586529590
  40
54.136892712800
  50
11.117524240242
  51
19.788948081844
  0
ARC
100
AcDbCircle
  8
0
  6
Continuous
  62
1
  10
440.787389679348
  20
190.155011012076
  40
80.742543088128
  50
2.351288762793
  51
11.355128058050
  0
ARC
100
AcDbCircle
  8
0
  6
Continuous
  62
1
  10
443.777403851445
  20
190.643228841322
  40
77.735874128620
  50
353.522740371294
  51
2.082160338642
  0
ARC
100
AcDbCircle
  8
0
  6
Continuous
  62
1
  10
441.252694535350
  20
190.471498298870
  40
80.226387543067
  50
347.343329634668
  51
353.848009343425
  0
ARC
100
AcDbCircle
  8
0
  6
Continuous
  62
1
  10
462.122354548167
  20
186.304163756838
  40
58.952928494323
  50
334.475167870055
  51
346.850917979793
  0
ARC
100
AcDbCircle
  8
0
  6
Continuous
  62
1
  10
479.787824202974
  20
177.908316149520
  40
39.393859777958
  50
322.521587441646
  51
334.423260304398
  0
ARC
100
AcDbCircle
  8
0
  6
Continuous
  62
1
  10
485.922876165820
  20
173.216561096211
  40
31.670433585445
  50
310.620320893026
  51
322.504123075580
  0
ARC
100
AcDbCircle
  8
0
  6
Continuous
  62
1
  10
490.388452063529
  20
168.061851177881
  40
24.850538969148
  50
294.591334674394
  51
310.542823279273
  0
ARC
100
AcDbCircle
  8
0
  6
Continuous
  62
1
  10
491.001378424152
  20
167.194030110982
  40
23.807173347650
  50
273.503504270002
  51
294.119153501539
  0
ARC
100
AcDbCircle
  8
0
  6
Continuous
  62
1
  10
490.786946364405
  20
169.189480637640
  40
25.812162632680
  50
255.903190009416
  51
273.707919057574
  0
ARC
100
AcDbCircle
  8
0
  6
Continuous
  62
1
  10
495.540318879622
  20
187.733302982629
  40
44.955382294560
  50
250.323384477219
  51
255.783800454782
  0
ARC
100
AcDbCircle
  8
0
  6
Continuous
  62
1
  10
105.285470610134
  20
-904.260641287987
  40
1114.678017905782
  50
70.334654085284
  51
70.581142280552
  0
ARC
100
AcDbCircle
  8
0
  6
Continuous
  62
1
  10
454.297266519456
  20
85.590272133466
  40
65.100006490741
  50
70.634290169277
  51
76.679274673730
  0
ARC
100
AcDbCircle
  8
0
  6
Continuous
  62
1
  10
455.367673336811
  20
88.648586529845
  40
61.878268135417
  50
76.991288785190
  51
85.421041341330
  0
ARC
100
AcDbCircle
  8
0
  6
Continuous
  62
1
  10
456.919989117471
  20
104.232433506317
  40
46.221229732141
  50
85.796962413050
  51
98.573906753222
  0
ARC
100
AcDbCircle
  8
0
  6
Continuous
  62
1
  10
452.952260281675
  20
130.842017781947
  40
19.317544532821
  50
98.703532238445
  51
106.973206335176
  0
ARC
100
AcDbCircle
  8
0
  6
Continuous
  62
1
  10
450.126083976961
  20
140.511467266576
  40
9.245027594145
  50
107.714921342444
  51
129.452292001108
  0
ARC
100
AcDbCircle
  8
0
  6
Continuous
  62
1
  10
451.568989228071
  20
138.511640276880
  40
11.707122766923
  50
128.685775127680
  51
145.359977278891
  0
ARC
100
AcDbCircle
  8
0
  6
Continuous
  62
1
  10
449.801082158809
  20
139.848742806876
  40
9.493038952188
  50
145.934426126811
  51
168.909103595219
  0
ARC
100
AcDbCircle
  8
0
  6
Continuous
  62
1
  10
457.657798635908
  20
138.425488581608
  40
17.477179558213
  50
169.285106781669
  51
176.749675102742
  0
ARC
100
AcDbCircle
  8
0
  6
Continuous
  62
1
  10
440.233693542689
  20
139.415000093692
  40
0.025000000001
  50
176.749675102733
  51
180.000000000000
  0
LINE
100
AcDbLine
  8
0
  6
Continuous
  62
1
  10
440.208693542688
  20
139.415000093692
  11
440.208693542688
  21
6.150000000000
  0
ARC
100
AcDbCircle
  8
0
  6
Continuous
  62
1
  10
440.083693542688
  20
6.150000000000
  40
0.125000000000
  50
270.000000000000
  51
0.000000000000
  0
LINE
100
AcDbLine
  8
0
  6
Continuous
  62
1
  10
440.083693542688
  20
6.025000000000
  11
320.166186997779
  21
6.025000000000
  0
ARC
100
AcDbCircle
  8
0
  6
Continuous
  62
1
  10
320.166186997779
  20
6.075000000000
  40
0.050000000000
  50
267.101053231704
  51
270.000000000000
  0
ARC
100
AcDbCircle
  8
0
  6
Continuous
  62
1
  10
320.681317270867
  20
16.247522272837
  40
10.235556862029
  50
244.919905495552
  51
267.101053231649
  0
ARC
100
AcDbCircle
  8
0
  6
Continuous
  62
1
  10
320.895255492672
  20
16.646867885253
  40
10.687963837179
  50
212.080585962416
  51
244.788615873038
  0
ARC
100
AcDbCircle
  8
0
  6
Continuous
  62
1
  10
320.149517985296
  20
16.071336876132
  40
9.750857920250
  50
191.560613768724
  51
211.542463708490
  0
ARC
100
AcDbCircle
  8
0
  6
Continuous
  62
1
  10
326.431582658734
  20
17.273210049158
  40
16.146546160772
  50
178.588692712982
  51
191.271542536079
  0
ARC
100
AcDbCircle
  8
0
  6
Continuous
  62
1
  10
334.282508419515
  20
17.124096326945
  40
23.998803803434
  50
166.649095264514
  51
178.694446089235
  0
ARC
100
AcDbCircle
  8
0
  6
Continuous
  62
1
  10
344.700252024498
  20
14.739401546734
  40
34.685763601280
  50
155.297883733064
  51
166.790096621090
  0
ARC
100
AcDbCircle
  8
0
  6
Continuous
  62
1
  10
213.536883204050
  20
76.268157389796
  40
110.193454371777
  50
334.733631732776
  51
336.503933358151
  0
ARC
100
AcDbCircle
  8
0
  6
Continuous
  62
1
  10
257.973692588909
  20
56.789360892105
  40
61.675264879520
  50
336.640886289594
  51
344.622844138791
  0
ARC
100
AcDbCircle
  8
0
  6
Continuous
  62
1
  10
272.532057906701
  20
52.742235485250
  40
46.564907069365
  50
344.674248186814
  51
354.889345980006
  0
ARC
100
AcDbCircle
  8
0
  6
Continuous
  62
1
  10
283.293954412468
  20
51.728934881228
  40
35.755565780659
  50
354.970441466878
  51
8.281586229888
  0
ARC
100
AcDbCircle
  8
0
  6
Continuous
  62
1
  10
289.385216392336
  20
52.563108740262
  40
29.607715284204
  50
8.382019501286
  51
30.491358803637
  0
ARC
100
AcDbCircle
  8
0
  6
Continuous
  62
1
  10
288.303228744340
  20
51.752573730566
  40
30.951703212077
  50
30.767980534846
  51
47.778537995977
  0
ARC
100
AcDbCircle
  8
0
  6
Continuous
  62
1
  10
284.108717201217
  20
47.091119441290
  40
37.222469597258
  50
47.818913775090
  51
60.607492205721
  0
ARC
100
AcDbCircle
  8
0
  6
Continuous
  62
1
  10
280.112190131601
  20
39.827844486143
  40
45.512331126870
  50
60.711547647773
  51
73.404528824210
  0
ARC
100
AcDbCircle
  8
0
  6
Continuous
  62
1
  10
277.626909313085
  20
31.518224012234
  40
54.185643847925
  50
73.395620915062
  51
87.812625228284
  0
ARC
100
AcDbCircle
  8
0
  6
Continuous
  62
1
  10
277.426722161423
  20
31.673968331526
  40
54.038046274569
  50
87.594220988499
  51
103.308867827861
  0
ARC
100
AcDbCircle
  8
0
  6
Continuous
  62
1
  10
275.335531617548
  20
40.667618044828
  40
44.804557820751
  50
103.354026370465
  51
115.679519960416
  0
ARC
100
AcDbCircle
  8
0
  6
Continuous
  62
1
  10
271.282192116889
  20
49.177536340456
  40
35.378702482553
  50
115.735656789123
  51
129.436038100390
  0
ARC
100
AcDbCircle
  8
0
  6
Continuous
  62
1
  10
266.995863309839
  20
54.389385851627
  40
28.630666477035
  50
129.436386593538
  51
147.853358938339
  0
ARC
100
AcDbCircle
  8
0
  6
Continuous
  62
1
  10
265.591713346994
  20
55.479880966237
  40
26.862126457979
  50
148.229143873934
  51
170.705496006089
  0
ARC
100
AcDbCircle
  8
0
  6
Continuous
  62
1
  10
271.058767822171
  20
54.640279169782
  40
32.393054200790
  50
170.801717920206
  51
184.708392107484
  0
ARC
100
AcDbCircle
  8
0
  6
Continuous
  62
1
  10
281.580182212987
  20
55.544339997113
  40
42.953188378906
  50
184.758233844374
  51
196.033716025395
  0
ARC
100
AcDbCircle
  8
0
  6
Continuous
  62
1
  10
299.649053754803
  20
60.674487071037
  40
61.736159792886
  50
195.977943322881
  51
199.962528960789
  0
ARC
100
AcDbCircle
  8
0
  6
Continuous
  62
1
  10
197.732691312538
  20
24.374102031919
  40
46.454733110062
  50
9.640987930190
  51
19.129369147395
  0
ARC
100
AcDbCircle
  8
0
  6
Continuous
  62
1
  10
195.266386697017
  20
23.803621191611
  40
48.981973359300
  50
356.656392123178
  51
9.815724628182
  0
ARC
100
AcDbCircle
  8
0
  6
Continuous
  62
1
  10
185.948823125040
  20
24.277040247266
  40
58.311330417762
  50
351.339308309626
  51
356.725981696764
  0
ARC
100
AcDbCircle
  8
0
  6
Continuous
  62
1
  10
228.741270482486
  20
17.833042810040
  40
15.036651567952
  50
340.365174150448
  51
351.060082362717
  0
ARC
100
AcDbCircle
  8
0
  6
Continuous
  62
1
  10
233.148091967150
  20
16.422951911249
  40
10.413366936137
  50
297.084762897565
  51
339.524970877992
  0
ARC
100
AcDbCircle
  8
0
  6
Continuous
  62
1
  10
233.181963618006
  20
16.272818605099
  40
10.264347205098
  50
273.259934979658
  51
297.297995606518
  0
ARC
100
AcDbCircle
  8
0
  6
Continuous
  62
1
  10
233.762811725359
  20
6.075000000002
  40
0.050000000000
  50
270.000000000000
  51
273.259934979611
  0
LINE
100
AcDbLine
  8
0
  6
Continuous
  62
1
  10
233.762811725359
  20
6.025000000002
  11
99.833693542688
  21
6.025000000000
  0
ARC
100
AcDbCircle
  8
0
  6
Continuous
  62
1
  10
99.833693542688
  20
6.150000000000
  40
0.125000000000
  50
180.000000000055
  51
270.000000000000
  0
LINE
100
AcDbLine
  8
0
  6
Continuous
  62
1
  10
99.708693542688
  20
6.150000000000
  11
99.708693542687
  21
140.081248474429
  0
ARC
100
AcDbCircle
  8
0
  6
Continuous
  62
1
  10
99.683693542685
  20
140.081248474429
  40
0.025000000002
  50
0.000000000000
  51
3.408340788102
  0
ARC
100
AcDbCircle
  8
0
  6
Continuous
  62
1
  10
89.277740245541
  20
139.461500735424
  40
10.449392130114
  50
3.408340788074
  51
37.769797040942
  0
ARC
100
AcDbCircle
  8
0
  6
Continuous
  62
1
  10
89.260827125251
  20
139.477090127039
  40
10.453237834818
  50
37.645472394821
  51
74.384869627511
  0
ARC
100
AcDbCircle
  8
0
  6
Continuous
  62
1
  10
87.088431086960
  20
131.566127095316
  40
18.657009214413
  50
74.499143712686
  51
82.236910909005
  0
ARC
100
AcDbCircle
  8
0
  6
Continuous
  62
1
  10
81.770754348758
  20
95.177399853530
  40
55.431661634946
  50
81.871365497648
  51
91.674585283660
  0
ARC
100
AcDbCircle
  8
0
  6
Continuous
  62
1
  10
81.890336281895
  20
101.557221664823
  40
49.059013166172
  50
92.031925580769
  51
107.606872870435
  0
ARC
100
AcDbCircle
  8
0
  6
Continuous
  62
1
  10
91.436531784223
  20
74.661891968728
  40
77.587972059452
  50
108.318462288456
  51
109.738756451981
  0
ARC
100
AcDbCircle
  8
0
  6
Continuous
  62
1
  10
48.738356547282
  20
194.018320105071
  40
49.176038079561
  50
280.111065561788
  51
289.597592868064
  0
ARC
100
AcDbCircle
  8
0
  6
Continuous
  62
1
  10
50.950450435122
  20
181.599148485182
  40
36.561396805706
  50
267.579088371949
  51
280.115033914947
  0
ARC
100
AcDbCircle
  8
0
  6
Continuous
  62
1
  10
50.686108490019
  20
173.817304302194
  40
28.775404705934
  50
251.524203360037
  51
267.450457858237
  0
ARC
100
AcDbCircle
  8
0
  6
Continuous
  62
1
  10
50.180445815416
  20
171.850297432254
  40
26.749921797070
  50
227.732960554820
  51
251.216297118251
  0
ARC
100
AcDbCircle
  8
0
  6
Continuous
  62
1
  10
53.422065834810
  20
175.347579060382
  40
31.518279333567
  50
212.558162582489
  51
227.648190594771
  0
ARC
100
AcDbCircle
  8
0
  6
Continuous
  62
1
  10
60.175864178405
  20
179.633192599218
  40
39.517021253124
  50
199.853016658598
  51
212.525564216539
  0
ARC
100
AcDbCircle
  8
0
  6
Continuous
  62
1
  10
69.503088843958
  20
182.974435290539
  40
49.424620624953
  50
186.776551738536
  51
199.824103253712
  0
ARC
100
AcDbCircle
  8
0
  6
Continuous
  62
1
  10
75.479729383958
  20
183.780719894901
  40
55.454729383958
  50
166.376561056349
  51
186.875142375351
  0
ARC
100
AcDbCircle
  8
0
  6
Continuous
  62
1
  10
68.212840215148
  20
185.528818795422
  40
47.980551114803
  50
154.336386378732
  51
166.361365182375
  0
ARC
100
AcDbCircle
  8
0
  6
Continuous
  62
1
  10
60.107385719413
  20
189.396629606201
  40
38.999591356013
  50
140.803634847935
  51
154.300972709907
  0
ARC
100
AcDbCircle
  8
0
  6
Continuous
  62
1
  10
54.518619598494
  20
193.936545092775
  40
31.799250272782
  50
123.718047245204
  51
140.779085948615
  0
ARC
100
AcDbCircle
  8
0
  6
Continuous
  62
1
  10
53.059993803032
  20
195.856940724748
  40
29.392581071638
  50
99.752513387158
  51
123.431045015720
  0
ARC
100
AcDbCircle
  8
0
  6
Continuous
  62
1
  10
53.916461373498
  20
190.506100188524
  40
34.811229766694
  50
86.241653676191
  51
99.649968729680
  0
ARC
100
AcDbCircle
  8
0
  6
Continuous
  62
1
  10
53.248642543178
  20
180.619117674541
  40
44.720727451843
  50
75.591364357689
  51
86.218200378364
  0
ARC
100
AcDbCircle
  8
0
  6
Continuous
  62
1
  10
49.749935018003
  20
166.793177652048
  40
58.982408375261
  50
67.445392173657
  51
75.641616862760
  0
ARC
100
AcDbCircle
  8
0
  6
Continuous
  62
1
  10
42.081698341374
  20
147.901444003506
  40
79.370624456767
  50
64.467216400078
  51
67.564110749708
  0
ARC
100
AcDbCircle
  8
0
  6
Continuous
  62
1
  10
90.769177181908
  20
250.586007237370
  40
34.272845051920
  50
245.014332899220
  51
258.402270889372
  0
ARC
100
AcDbCircle
  8
0
  6
Continuous
  62
1
  10
88.415368567027
  20
239.296284848363
  40
22.740443518219
  50
258.493165948925
  51
270.861509040497
  0
ARC
100
AcDbCircle
  8
0
  6
Continuous
  62
1
  10
88.543665919916
  20
231.538097961585
  40
14.981209114307
  50
270.817015324466
  51
282.816391254196
  0
ARC
100
AcDbCircle
  8
0
  6
Continuous
  62
1
  10
89.609526915659
  20
226.484448285417
  40
9.817369391251
  50
283.293399362597
  51
311.100945574345
  0
ARC
100
AcDbCircle
  8
0
  6
Continuous
  62
1
  10
88.963558733826
  20
227.241356655949
  40
10.812396549707
  50
311.043655739438
  51
342.614898601950
  0
ARC
100
AcDbCircle
  8
0
  6
Continuous
  62
1
  10
89.018432304521
  20
227.055691842459
  40
10.705761912253
  50
343.475443562426
  51
356.912803005114
  0
ARC
100
AcDbCircle
  8
0
  6
Continuous
  62
1
  10
99.683693542686
  20
226.480472103704
  40
0.025000000003
  50
356.912803006161
  51
0.000000000912
  0
LINE
100
AcDbLine
  8
0
  6
Continuous
  62
1
  10
99.708693542689
  20
226.480472103705
  11
99.708693542688
  21
346.400000000000
  0
ARC
100
AcDbCircle
  8
0
  6
Continuous
  62
1
  10
99.833693542688
  20
346.400000000000
  40
0.125000000000
  50
90.000000000000
  51
180.000000000052
  0
LINE
100
AcDbLine
  8
0
  6
Continuous
  62
1
  10
99.833693542688
  20
346.525000000000
  11
219.751267839717
  21
346.525000000001
  0
ARC
100
AcDbCircle
  8
0
  6
Continuous
  62
1
  10
219.751267839715
  20
346.475000000001
  40
0.050000000000
  50
87.198134389479
  51
90.000000000000
  0
ARC
100
AcDbCircle
  8
0
  6
Continuous
  62
1
  10
219.257905575262
  20
336.394202775323
  40
10.142862775697
  50
64.813599423737
  51
87.198134391082
  0
ARC
100
AcDbCircle
  8
0
  6
Continuous
  62
1
  10
219.060025387748
  20
335.948684865457
  40
10.630240446493
  50
31.183164213397
  51
64.870351011580
  0
ARC
100
AcDbCircle
  8
0
  6
Continuous
  62
1
  10
219.805507116416
  20
336.498558569992
  40
9.708124534948
  50
12.364042642434
  51
30.684843842132
  0
ARC
100
AcDbCircle
  8
0
  6
Continuous
  62
1
  10
214.082230940570
  20
335.336654725759
  40
15.547713023555
  50
359.958654495684
  51
12.030439190920
  0
ARC
100
AcDbCircle
  8
0
  6
Continuous
  62
1
  10
206.275202729727
  20
335.346739328895
  40
23.354746903057
  50
347.570180898039
  51
359.947735107034
  0
ARC
100
AcDbCircle
  8
0
  6
Continuous
  62
1
  10
195.394359126053
  20
337.737341797491
  40
34.495110450481
  50
335.038788867728
  51
347.582578903462
  0
ARC
100
AcDbCircle
  8
0
  6
Continuous
  62
1
  10
306.460042204739
  20
285.267694247612
  40
88.341530441408
  50
154.585807618681
  51
156.889488529345
  0
ARC
100
AcDbCircle
  8
0
  6
Continuous
  62
1
  10
280.386641257093
  20
296.322836201717
  40
60.021361144123
  50
156.826484308306
  51
165.735978698073
  0
ARC
100
AcDbCircle
  8
0
  6
Continuous
  62
1
  10
265.577638390896
  20
300.125395103864
  40
44.732010947861
  50
165.782770358666
  51
176.608265452777
  0
ARC
100
AcDbCircle
  8
0
  6
Continuous
  62
1
  10
255.232493418838
  20
300.766037879916
  40
34.367095851721
  50
176.654074845337
  51
190.996600715272
  0
ARC
100
AcDbCircle
  8
0
  6
Continuous
  62
1
  10
250.360072538531
  20
299.908053792149
  40
29.420607993549
  50
191.166396581178
  51
221.210608238134
  0
ARC
100
AcDbCircle
  8
0
  6
Continuous
  62
1
  10
253.902998352843
  20
303.042667911544
  40
34.151108407506
  50
221.250817435297
  51
235.429133459574
  0
ARC
100
AcDbCircle
  8
0
  6
Continuous
  62
1
  10
258.272776954326
  20
309.464326503349
  40
41.918409620618
  50
235.491496275486
  51
248.670668677780
  0
ARC
100
AcDbCircle
  8
0
  6
Continuous
  62
1
  10
261.727074183352
  20
318.383204993832
  40
51.482822696179
  50
248.699995489972
  51
262.062173753807
  0
ARC
100
AcDbCircle
  8
0
  6
Continuous
  62
1
  10
262.421925988839
  20
322.242303107448
  40
55.401120395111
  50
261.901605216512
  51
279.372328703124
  0
ARC
100
AcDbCircle
  8
0
  6
Continuous
  62
1
  10
263.758472100118
  20
314.454542704319
  40
47.499690369458
  50
279.311447873903
  51
292.366415870457
  0
ARC
100
AcDbCircle
  8
0
  6
Continuous
  62
1
  10
267.599272652534
  20
305.121993629003
  40
37.407702421766
  50
292.365566745102
  51
305.774290239549
  0
ARC
100
AcDbCircle
  8
0
  6
Continuous
  62
1
  10
271.812453694137
  20
299.245422034783
  40
30.176891684481
  50
305.806837788779
  51
321.590115136361
  0
ARC
100
AcDbCircle
  8
0
  6
Continuous
  62
1
  10
274.451842247348
  20
297.023933196592
  40
26.728720347674
  50
321.806450274287
  51
349.805128232204
  0
ARC
100
AcDbCircle
  8
0
  6
Continuous
  62
1
  10
269.577028647605
  20
297.866559674576
  40
31.675727509632
  50
349.865729314398
  51
3.015399384565
  0
ARC
100
AcDbCircle
  8
0
  6
Continuous
  62
1
  10
259.893256261181
  20
297.264474096960
  40
41.377866311159
  50
3.142574624062
  51
14.643080446300
  0
ARC
100
AcDbCircle
  8
0
  6
Continuous
  62
1
  10
246.139422452372
  20
293.758381916913
  40
55.571360709237
  50
14.555737153924
  51
19.899895237169
  0
ARC
100
AcDbCircle
  8
0
  6
Continuous
  62
1
  10
342.421941250539
  20
328.245186272283
  40
46.701825585375
  50
188.949045163553
  51
199.476777043894
  0
ARC
100
AcDbCircle
  8
0
  6
Continuous
  62
1
  10
344.939085253144
  20
328.773790264279
  40
49.270729230779
  50
175.330711922339
  51
189.100931476552
  0
ARC
100
AcDbCircle
  8
0
  6
Continuous
  62
1
  10
352.870818174682
  20
328.415022107283
  40
57.206068762236
  50
171.462414715655
  51
175.619264445424
  0
ARC
100
AcDbCircle
  8
0
  6
Continuous
  62
1
  10
311.655028952176
  20
334.611983204611
  40
15.527017937650
  50
161.684876238633
  51
171.497361094953
  0
ARC
100
AcDbCircle
  8
0
  6
Continuous
  62
1
  10
306.736649287340
  20
336.150438861756
  40
10.374690353490
  50
121.899554975497
  51
161.215196063398
  0
ARC
100
AcDbCircle
  8
0
  6
Continuous
  62
1
  10
306.754836179682
  20
336.201365872663
  40
10.341151810224
  50
93.343532832532
  51
122.134207688000
  0
ARC
100
AcDbCircle
  8
0
  6
Continuous
  62
1
  10
306.154630049518
  20
346.474999999999
  40
0.050000000000
  50
90.000000000000
  51
93.343532833127
  0
LINE
100
AcDbLine
  8
0
  6
Continuous
  62
1
  10
306.154630049517
  20
346.524999999999
  11
440.083693542688
  21
346.525000000000
  0
ARC
100
AcDbCircle
  8
0
  6
Continuous
  62
1
  10
440.083693542688
  20
346.400000000000
  40
0.125000000000
  50
0.000000000000
  51
90.000000000000
  0
LINE
100
AcDbLine
  8
0
  6
Continuous
  62
1
  10
440.208693542688
  20
346.400000000000
  11
440.208693542688
  21
236.679319068477
  0
ARC
100
AcDbCircle
  8
0
  6
Continuous
  62
1
  10
440.233693542678
  20
236.679319068478
  40
0.024999999990
  50
180.000000001954
  51
182.488885352218
  0
ARC
100
AcDbCircle
  8
0
  6
Continuous
  62
1
  10
450.684780203109
  20
237.133592141542
  40
10.485954851663
  50
182.488885350278
  51
225.022662051952
  0
ARC
100
AcDbCircle
  8
0
  6
Continuous
  62
1
  10
450.878102075840
  20
237.195474938221
  40
10.666780566108
  50
224.523044559406
  51
248.064915640149
  0
ENDSEC
  0
EOF
